ISO-10303-21;
HEADER;
FILE_DESCRIPTION (( 'STEP AP203' ),
    '1' );
FILE_NAME ('Q-QZWP-R4-10-894-M.STEP',
    '2020-12-23T01:22:43',
    ( '' ),
    ( '' ),
    'SwSTEP 2.0',
    'SolidWorks 2020',
    '' );
FILE_SCHEMA (( 'CONFIG_CONTROL_DESIGN' ));
ENDSEC;

DATA;
#1 = PERSON_AND_ORGANIZATION_ROLE ( 'design_owner' ) ;
#2 = CARTESIAN_POINT ( 'NONE',  ( -1.614212418857619014, 0.000000000000000000, 0.000000000000000000 ) ) ;
#3 = APPLICATION_CONTEXT ( 'configuration controlled 3d designs of mechanical parts and assemblies' ) ;
#4 = AXIS2_PLACEMENT_3D ( 'NONE', #122, #96, #69 ) ;
#5 = EDGE_CURVE ( 'NONE', #288, #240, #237, .T. ) ;
#6 = CARTESIAN_POINT ( 'NONE',  ( -1.614212418857619014, 1.555301434917138433E-15, -12.69999999999999929 ) ) ;
#7 = EDGE_LOOP ( 'NONE', ( #218, #57, #265, #319 ) ) ;
#8 = AXIS2_PLACEMENT_3D ( 'NONE', #64, #170, #39 ) ;
#9 = EDGE_LOOP ( 'NONE', ( #56, #105 ) ) ;
#10 = VERTEX_POINT ( 'NONE', #37 ) ;
#11 = DIRECTION ( 'NONE',  ( -1.000000000000000000, -0.000000000000000000, -0.000000000000000000 ) ) ;
#12 = APPROVAL_ROLE ( '' ) ;
#13 = EDGE_CURVE ( 'NONE', #238, #195, #89, .T. ) ;
#14 = DIRECTION ( 'NONE',  ( -1.000000000000000000, -0.000000000000000000, -0.000000000000000000 ) ) ;
#15 = CIRCLE ( 'NONE', #61, 5.000000000000001776 ) ;
#16 = APPROVAL_PERSON_ORGANIZATION ( #68, #147, #12 ) ;
#17 = APPROVAL_ROLE ( '' ) ;
#18 = CARTESIAN_POINT ( 'NONE',  ( -1.614212418857619014, 0.000000000000000000, 0.000000000000000000 ) ) ;
#19 = FACE_OUTER_BOUND ( 'NONE', #133, .T. ) ;
#20 = DIRECTION ( 'NONE',  ( 0.000000000000000000, 0.000000000000000000, 1.000000000000000000 ) ) ;
#21 = EDGE_CURVE ( 'NONE', #139, #263, #259, .T. ) ;
#22 = DIRECTION ( 'NONE',  ( -1.000000000000000000, -0.000000000000000000, -0.000000000000000000 ) ) ;
#23 = DIRECTION ( 'NONE',  ( -1.000000000000000000, -0.000000000000000000, -0.000000000000000000 ) ) ;
#24 = CC_DESIGN_SECURITY_CLASSIFICATION ( #251, ( #31 ) ) ;
#25 = AXIS2_PLACEMENT_3D ( 'NONE', #245, #116, #220 ) ;
#26 = MECHANICAL_CONTEXT ( 'NONE', #329, 'mechanical' ) ;
#27 = DIRECTION ( 'NONE',  ( -1.000000000000000000, -0.000000000000000000, -0.000000000000000000 ) ) ;
#28 = CARTESIAN_POINT ( 'NONE',  ( 3.000000000000000000, 12.69999999999999929, 0.000000000000000000 ) ) ;
#29 = EDGE_LOOP ( 'NONE', ( #55, #87, #244, #313 ) ) ;
#30 = AXIS2_PLACEMENT_3D ( 'NONE', #41, #14, #144 ) ;
#31 = PRODUCT_DEFINITION_FORMATION_WITH_SPECIFIED_SOURCE ( 'ANY', '', #86, .NOT_KNOWN. ) ;
#32 = ORIENTED_EDGE ( 'NONE', *, *, #21, .F. ) ;
#33 = VERTEX_POINT ( 'NONE', #198 ) ;
#34 = DIRECTION ( 'NONE',  ( -1.000000000000000000, -0.000000000000000000, -0.000000000000000000 ) ) ;
#35 = ADVANCED_FACE ( 'NONE', ( #171, #221 ), #190, .F. ) ;
#36 = VERTEX_POINT ( 'NONE', #193 ) ;
#37 = CARTESIAN_POINT ( 'NONE',  ( 3.000000000000000000, 1.555301434917138433E-15, -12.69999999999999929 ) ) ;
#38 = DATE_AND_TIME ( #42, #126 ) ;
#39 = DIRECTION ( 'NONE',  ( -0.000000000000000000, 0.000000000000000000, 1.000000000000000000 ) ) ;
#40 = DATE_TIME_ROLE ( 'creation_date' ) ;
#41 = CARTESIAN_POINT ( 'NONE',  ( 3.000000000000000000, 0.000000000000000000, 0.000000000000000000 ) ) ;
#42 = CALENDAR_DATE ( 2020, 23, 12 ) ;
#43 = CARTESIAN_POINT ( 'NONE',  ( -1.614212418857619014, 0.000000000000000000, 0.000000000000000000 ) ) ;
#44 = AXIS2_PLACEMENT_3D ( 'NONE', #70, #277, #327 ) ;
#45 = ADVANCED_FACE ( 'NONE', ( #165 ), #90, .F. ) ;
#46 = CARTESIAN_POINT ( 'NONE',  ( -3.000000000000000000, 0.000000000000000000, 5.000000000000000000 ) ) ;
#47 = CARTESIAN_POINT ( 'NONE',  ( 0.000000000000000000, 0.000000000000000000, 0.000000000000000000 ) ) ;
#48 = FACE_OUTER_BOUND ( 'NONE', #164, .T. ) ;
#49 = CARTESIAN_POINT ( 'NONE',  ( -1.250000000000000222, 5.000000000000000000, 0.000000000000000000 ) ) ;
#50 = CARTESIAN_POINT ( 'NONE',  ( -1.614212418857619014, 0.000000000000000000, 5.000000000000000888 ) ) ;
#51 = AXIS2_PLACEMENT_3D ( 'NONE', #43, #252, #94 ) ;
#52 = EDGE_CURVE ( 'NONE', #263, #139, #215, .T. ) ;
#53 = AXIS2_PLACEMENT_3D ( 'NONE', #177, #27, #201 ) ;
#54 = APPROVAL_PERSON_ORGANIZATION ( #91, #332, #17 ) ;
#55 = ORIENTED_EDGE ( 'NONE', *, *, #65, .F. ) ;
#56 = ORIENTED_EDGE ( 'NONE', *, *, #235, .F. ) ;
#57 = ORIENTED_EDGE ( 'NONE', *, *, #21, .T. ) ;
#58 = EDGE_LOOP ( 'NONE', ( #260, #217, #273, #212 ) ) ;
#59 = EDGE_CURVE ( 'NONE', #195, #238, #228, .T. ) ;
#60 = CARTESIAN_POINT ( 'NONE',  ( -1.614212418857619014, 6.123233995736767268E-16, -5.000000000000000888 ) ) ;
#61 = AXIS2_PLACEMENT_3D ( 'NONE', #123, #205, #335 ) ;
#62 = FACE_OUTER_BOUND ( 'NONE', #213, .T. ) ;
#63 = EDGE_CURVE ( 'NONE', #315, #270, #160, .T. ) ;
#64 = CARTESIAN_POINT ( 'NONE',  ( 1.250000000000000222, 5.000000000000000000, 0.000000000000000000 ) ) ;
#65 = EDGE_CURVE ( 'NONE', #10, #36, #239, .T. ) ;
#66 = PERSON_AND_ORGANIZATION ( #199, #119 ) ;
#67 = DIRECTION ( 'NONE',  ( -1.000000000000000000, -0.000000000000000000, -0.000000000000000000 ) ) ;
#68 = PERSON_AND_ORGANIZATION ( #199, #119 ) ;
#69 = DIRECTION ( 'NONE',  ( 0.000000000000000000, 0.000000000000000000, 1.000000000000000000 ) ) ;
#70 = CARTESIAN_POINT ( 'NONE',  ( -1.614212418857619014, 0.000000000000000000, 0.000000000000000000 ) ) ;
#71 = CARTESIAN_POINT ( 'NONE',  ( -3.000000000000000000, 0.000000000000000000, 0.000000000000000000 ) ) ;
#72 = LINE ( 'NONE', #158, #107 ) ;
#73 = DIRECTION ( 'NONE',  ( 0.000000000000000000, 0.000000000000000000, 1.000000000000000000 ) ) ;
#74 = VECTOR ( 'NONE', #295, 1000.000000000000000 ) ;
#75 = CC_DESIGN_APPROVAL ( #153, ( #31 ) ) ;
#76 = DIRECTION ( 'NONE',  ( 0.000000000000000000, 0.000000000000000000, -1.000000000000000000 ) ) ;
#77 = CARTESIAN_POINT ( 'NONE',  ( -1.250000000000000222, 6.123233995736767268E-16, -5.000000000000000888 ) ) ;
#78 = EDGE_CURVE ( 'NONE', #139, #315, #294, .T. ) ;
#79 = AXIS2_PLACEMENT_3D ( 'NONE', #28, #151, #227 ) ;
#80 = ADVANCED_FACE ( 'NONE', ( #62 ), #269, .F. ) ;
#81 = CARTESIAN_POINT ( 'NONE',  ( 1.250000000000000444, 0.000000000000000000, 0.000000000000000000 ) ) ;
#82 = PERSON_AND_ORGANIZATION_ROLE ( 'classification_officer' ) ;
#83 = EDGE_LOOP ( 'NONE', ( #145, #286 ) ) ;
#84 = DIRECTION ( 'NONE',  ( 0.000000000000000000, 0.000000000000000000, 1.000000000000000000 ) ) ;
#85 = DATE_AND_TIME ( #321, #309 ) ;
#86 = PRODUCT ( 'Q-QZWP-R4-10-894-M', 'Q-QZWP-R4-10-894-M', '', ( #26 ) ) ;
#87 = ORIENTED_EDGE ( 'NONE', *, *, #124, .T. ) ;
#88 = APPROVAL_STATUS ( 'not_yet_approved' ) ;
#89 = CIRCLE ( 'NONE', #111, 5.000000000000000000 ) ;
#90 = CYLINDRICAL_SURFACE ( 'NONE', #25, 5.000000000000000888 ) ;
#91 = PERSON_AND_ORGANIZATION ( #199, #119 ) ;
#92 = CARTESIAN_POINT ( 'NONE',  ( 1.250000000000000444, 0.000000000000000000, 0.000000000000000000 ) ) ;
#93 = COORDINATED_UNIVERSAL_TIME_OFFSET ( 8, 0, .AHEAD. ) ;
#94 = DIRECTION ( 'NONE',  ( 0.000000000000000000, 0.000000000000000000, 1.000000000000000000 ) ) ;
#95 = ADVANCED_FACE ( 'NONE', ( #48 ), #156, .F. ) ;
#96 = DIRECTION ( 'NONE',  ( -1.000000000000000000, -0.000000000000000000, -0.000000000000000000 ) ) ;
#97 = DIRECTION ( 'NONE',  ( 0.000000000000000000, 0.000000000000000000, 1.000000000000000000 ) ) ;
#98 = AXIS2_PLACEMENT_3D ( 'NONE', #47, #154, #181 ) ;
#99 = CYLINDRICAL_SURFACE ( 'NONE', #186, 5.000000000000000888 ) ;
#100 = EDGE_CURVE ( 'NONE', #240, #288, #15, .T. ) ;
#101 = DIRECTION ( 'NONE',  ( -1.000000000000000000, -0.000000000000000000, -0.000000000000000000 ) ) ;
#102 = CARTESIAN_POINT ( 'NONE',  ( 3.000000000000000000, 6.123233995736768255E-16, -5.000000000000001776 ) ) ;
#103 = VECTOR ( 'NONE', #306, 1000.000000000000000 ) ;
#104 = APPROVAL_PERSON_ORGANIZATION ( #143, #153, #224 ) ;
#105 = ORIENTED_EDGE ( 'NONE', *, *, #63, .F. ) ;
#106 = ADVANCED_FACE ( 'NONE', ( #130 ), #152, .T. ) ;
#107 = VECTOR ( 'NONE', #258, 1000.000000000000000 ) ;
#108 = CC_DESIGN_DATE_AND_TIME_ASSIGNMENT ( #85, #40, ( #256 ) ) ;
#109 = ORIENTED_EDGE ( 'NONE', *, *, #63, .T. ) ;
#110 = DIRECTION ( 'NONE',  ( 1.000000000000000000, 0.000000000000000000, 0.000000000000000000 ) ) ;
#111 = AXIS2_PLACEMENT_3D ( 'NONE', #92, #11, #84 ) ;
#112 = PERSON_AND_ORGANIZATION_ROLE ( 'creator' ) ;
#113 = VERTEX_POINT ( 'NONE', #255 ) ;
#114 = CARTESIAN_POINT ( 'NONE',  ( -3.000000000000000000, 5.000000000000000000, 0.000000000000000000 ) ) ;
#115 = EDGE_CURVE ( 'NONE', #36, #113, #324, .T. ) ;
#116 = DIRECTION ( 'NONE',  ( -1.000000000000000000, -0.000000000000000000, -0.000000000000000000 ) ) ;
#117 = EDGE_LOOP ( 'NONE', ( #159, #32 ) ) ;
#118 = COORDINATED_UNIVERSAL_TIME_OFFSET ( 8, 0, .AHEAD. ) ;
#119 = ORGANIZATION ( 'UNSPECIFIED', 'UNSPECIFIED', '' ) ;
#120 = DIRECTION ( 'NONE',  ( 0.000000000000000000, 0.000000000000000000, -1.000000000000000000 ) ) ;
#121 = CARTESIAN_POINT ( 'NONE',  ( 1.250000000000000444, 0.000000000000000000, 5.000000000000000000 ) ) ;
#122 = CARTESIAN_POINT ( 'NONE',  ( 3.000000000000000000, 0.000000000000000000, 0.000000000000000000 ) ) ;
#123 = CARTESIAN_POINT ( 'NONE',  ( 3.000000000000000000, 0.000000000000000000, 0.000000000000000000 ) ) ;
#124 = EDGE_CURVE ( 'NONE', #10, #33, #267, .T. ) ;
#125 =( NAMED_UNIT ( * ) PLANE_ANGLE_UNIT ( ) SI_UNIT ( $, .RADIAN. ) );
#126 = LOCAL_TIME ( 9, 22, 43.00000000000000000, #191 ) ;
#127 = CARTESIAN_POINT ( 'NONE',  ( 3.000000000000000000, 0.000000000000000000, 0.000000000000000000 ) ) ;
#128 = CIRCLE ( 'NONE', #134, 5.000000000000000000 ) ;
#129 =( NAMED_UNIT ( * ) SI_UNIT ( $, .STERADIAN. ) SOLID_ANGLE_UNIT ( ) );
#130 = FACE_OUTER_BOUND ( 'NONE', #29, .T. ) ;
#131 = UNCERTAINTY_MEASURE_WITH_UNIT (LENGTH_MEASURE( 1.000000000000000082E-05 ), #303, 'distance_accuracy_value', 'NONE');
#132 = CC_DESIGN_DATE_AND_TIME_ASSIGNMENT ( #318, #274, ( #251 ) ) ;
#133 = EDGE_LOOP ( 'NONE', ( #211, #137 ) ) ;
#134 = AXIS2_PLACEMENT_3D ( 'NONE', #203, #101, #20 ) ;
#135 = EDGE_CURVE ( 'NONE', #240, #195, #304, .T. ) ;
#136 = ADVANCED_BREP_SHAPE_REPRESENTATION ( 'Q-QZWP-R4-10-894-M', ( #180, #98 ), #289 ) ;
#137 = ORIENTED_EDGE ( 'NONE', *, *, #124, .F. ) ;
#138 = DIRECTION ( 'NONE',  ( 1.000000000000000000, 0.000000000000000000, 0.000000000000000000 ) ) ;
#139 = VERTEX_POINT ( 'NONE', #77 ) ;
#140 = DIRECTION ( 'NONE',  ( 0.000000000000000000, 0.000000000000000000, 1.000000000000000000 ) ) ;
#141 = APPROVAL_DATE_TIME ( #226, #147 ) ;
#142 = DIRECTION ( 'NONE',  ( 0.000000000000000000, 0.000000000000000000, -1.000000000000000000 ) ) ;
#143 = PERSON_AND_ORGANIZATION ( #199, #119 ) ;
#144 = DIRECTION ( 'NONE',  ( 0.000000000000000000, 0.000000000000000000, 1.000000000000000000 ) ) ;
#145 = ORIENTED_EDGE ( 'NONE', *, *, #287, .T. ) ;
#146 = PERSON_AND_ORGANIZATION ( #199, #119 ) ;
#147 = APPROVAL ( #88, 'UNSPECIFIED' ) ;
#148 = CARTESIAN_POINT ( 'NONE',  ( -1.614212418857619014, 6.123233995736767268E-16, -5.000000000000000888 ) ) ;
#149 = SECURITY_CLASSIFICATION_LEVEL ( 'unclassified' ) ;
#150 = DIRECTION ( 'NONE',  ( 0.000000000000000000, 0.000000000000000000, 1.000000000000000000 ) ) ;
#151 = DIRECTION ( 'NONE',  ( -1.000000000000000000, 0.000000000000000000, -0.000000000000000000 ) ) ;
#152 = CYLINDRICAL_SURFACE ( 'NONE', #296, 12.69999999999999929 ) ;
#153 = APPROVAL ( #243, 'UNSPECIFIED' ) ;
#154 = DIRECTION ( 'NONE',  ( 0.000000000000000000, 0.000000000000000000, 1.000000000000000000 ) ) ;
#155 = DESIGN_CONTEXT ( 'detailed design', #3, 'design' ) ;
#156 = CYLINDRICAL_SURFACE ( 'NONE', #250, 5.000000000000000888 ) ;
#157 = FACE_OUTER_BOUND ( 'NONE', #117, .T. ) ;
#158 = CARTESIAN_POINT ( 'NONE',  ( -1.614212418857619014, 0.000000000000000000, 5.000000000000000888 ) ) ;
#159 = ORIENTED_EDGE ( 'NONE', *, *, #52, .F. ) ;
#160 = CIRCLE ( 'NONE', #207, 5.000000000000000000 ) ;
#161 = AXIS2_PLACEMENT_3D ( 'NONE', #298, #138, #299 ) ;
#162 = LOCAL_TIME ( 9, 22, 43.00000000000000000, #173 ) ;
#163 = ORIENTED_EDGE ( 'NONE', *, *, #135, .F. ) ;
#164 = EDGE_LOOP ( 'NONE', ( #168, #293, #167, #291 ) ) ;
#165 = FACE_OUTER_BOUND ( 'NONE', #320, .T. ) ;
#166 = APPROVAL_STATUS ( 'not_yet_approved' ) ;
#167 = ORIENTED_EDGE ( 'NONE', *, *, #59, .T. ) ;
#168 = ORIENTED_EDGE ( 'NONE', *, *, #100, .F. ) ;
#169 = CALENDAR_DATE ( 2020, 23, 12 ) ;
#170 = DIRECTION ( 'NONE',  ( -1.000000000000000000, 0.000000000000000000, -0.000000000000000000 ) ) ;
#171 = FACE_BOUND ( 'NONE', #9, .T. ) ;
#172 = CC_DESIGN_PERSON_AND_ORGANIZATION_ASSIGNMENT ( #175, #246, ( #256 ) ) ;
#173 = COORDINATED_UNIVERSAL_TIME_OFFSET ( 8, 0, .AHEAD. ) ;
#174 = DIRECTION ( 'NONE',  ( -1.000000000000000000, -0.000000000000000000, -0.000000000000000000 ) ) ;
#175 = PERSON_AND_ORGANIZATION ( #199, #119 ) ;
#176 = CARTESIAN_POINT ( 'NONE',  ( 3.000000000000000000, 0.000000000000000000, 5.000000000000001776 ) ) ;
#177 = CARTESIAN_POINT ( 'NONE',  ( -3.000000000000000000, 0.000000000000000000, 0.000000000000000000 ) ) ;
#178 = PLANE ( 'NONE',  #79 ) ;
#179 = CYLINDRICAL_SURFACE ( 'NONE', #44, 5.000000000000000888 ) ;
#180 = MANIFOLD_SOLID_BREP ( 'Ðý×', #222 ) ;
#181 = DIRECTION ( 'NONE',  ( 1.000000000000000000, 0.000000000000000000, 0.000000000000000000 ) ) ;
#182 = AXIS2_PLACEMENT_3D ( 'NONE', #49, #308, #76 ) ;
#183 = VECTOR ( 'NONE', #229, 1000.000000000000000 ) ;
#184 = CYLINDRICAL_SURFACE ( 'NONE', #51, 12.69999999999999929 ) ;
#185 = ORIENTED_EDGE ( 'NONE', *, *, #5, .T. ) ;
#186 = AXIS2_PLACEMENT_3D ( 'NONE', #275, #330, #73 ) ;
#187 = ORIENTED_EDGE ( 'NONE', *, *, #13, .F. ) ;
#188 = AXIS2_PLACEMENT_3D ( 'NONE', #114, #110, #142 ) ;
#189 = ORIENTED_EDGE ( 'NONE', *, *, #254, .T. ) ;
#190 = PLANE ( 'NONE',  #188 ) ;
#191 = COORDINATED_UNIVERSAL_TIME_OFFSET ( 8, 0, .AHEAD. ) ;
#192 = EDGE_LOOP ( 'NONE', ( #163, #249, #189, #290 ) ) ;
#193 = CARTESIAN_POINT ( 'NONE',  ( -3.000000000000000000, 1.555301434917138433E-15, -12.69999999999999929 ) ) ;
#194 = CARTESIAN_POINT ( 'NONE',  ( -3.000000000000000000, 0.000000000000000000, 0.000000000000000000 ) ) ;
#195 = VERTEX_POINT ( 'NONE', #230 ) ;
#196 = CC_DESIGN_PERSON_AND_ORGANIZATION_ASSIGNMENT ( #66, #112, ( #31 ) ) ;
#197 = SHAPE_DEFINITION_REPRESENTATION ( #276, #136 ) ;
#198 = CARTESIAN_POINT ( 'NONE',  ( 3.000000000000000000, 0.000000000000000000, 12.69999999999999929 ) ) ;
#199 = PERSON ( 'UNSPECIFIED', 'UNSPECIFIED', 'UNSPECIFIED', ('UNSPECIFIED'), ('UNSPECIFIED'), ('UNSPECIFIED') ) ;
#200 = CALENDAR_DATE ( 2020, 23, 12 ) ;
#201 = DIRECTION ( 'NONE',  ( 0.000000000000000000, 0.000000000000000000, 1.000000000000000000 ) ) ;
#202 = DIRECTION ( 'NONE',  ( 0.000000000000000000, 0.000000000000000000, 1.000000000000000000 ) ) ;
#203 = CARTESIAN_POINT ( 'NONE',  ( -3.000000000000000000, 0.000000000000000000, 0.000000000000000000 ) ) ;
#204 = FACE_BOUND ( 'NONE', #264, .T. ) ;
#205 = DIRECTION ( 'NONE',  ( -1.000000000000000000, -0.000000000000000000, -0.000000000000000000 ) ) ;
#206 = APPLICATION_PROTOCOL_DEFINITION ( 'international standard', 'config_control_design', 1994, #3 ) ;
#207 = AXIS2_PLACEMENT_3D ( 'NONE', #194, #174, #140 ) ;
#208 = CARTESIAN_POINT ( 'NONE',  ( -1.250000000000000222, 0.000000000000000000, 5.000000000000000888 ) ) ;
#209 = LOCAL_TIME ( 9, 22, 43.00000000000000000, #93 ) ;
#210 = ORIENTED_EDGE ( 'NONE', *, *, #236, .F. ) ;
#211 = ORIENTED_EDGE ( 'NONE', *, *, #284, .F. ) ;
#212 = ORIENTED_EDGE ( 'NONE', *, *, #312, .F. ) ;
#213 = EDGE_LOOP ( 'NONE', ( #187, #241 ) ) ;
#214 = DIRECTION ( 'NONE',  ( 0.000000000000000000, 0.000000000000000000, 1.000000000000000000 ) ) ;
#215 = CIRCLE ( 'NONE', #302, 5.000000000000000888 ) ;
#216 = DATE_AND_TIME ( #169, #162 ) ;
#217 = ORIENTED_EDGE ( 'NONE', *, *, #65, .T. ) ;
#218 = ORIENTED_EDGE ( 'NONE', *, *, #78, .F. ) ;
#219 = COORDINATED_UNIVERSAL_TIME_OFFSET ( 8, 0, .AHEAD. ) ;
#220 = DIRECTION ( 'NONE',  ( 0.000000000000000000, 0.000000000000000000, 1.000000000000000000 ) ) ;
#221 = FACE_OUTER_BOUND ( 'NONE', #83, .T. ) ;
#222 = CLOSED_SHELL ( 'NONE', ( #266, #45, #95, #80, #232, #233, #35, #106, #271, #311 ) ) ;
#223 = CC_DESIGN_APPROVAL ( #147, ( #256 ) ) ;
#224 = APPROVAL_ROLE ( '' ) ;
#225 = ORIENTED_EDGE ( 'NONE', *, *, #52, .T. ) ;
#226 = DATE_AND_TIME ( #248, #262 ) ;
#227 = DIRECTION ( 'NONE',  ( -0.000000000000000000, 0.000000000000000000, 1.000000000000000000 ) ) ;
#228 = CIRCLE ( 'NONE', #307, 5.000000000000000000 ) ;
#229 = DIRECTION ( 'NONE',  ( -1.000000000000000000, -0.000000000000000000, -0.000000000000000000 ) ) ;
#230 = CARTESIAN_POINT ( 'NONE',  ( 1.250000000000000444, 6.123233995736766282E-16, -5.000000000000000000 ) ) ;
#231 = PERSON_AND_ORGANIZATION ( #199, #119 ) ;
#232 = ADVANCED_FACE ( 'NONE', ( #253 ), #179, .F. ) ;
#233 = ADVANCED_FACE ( 'NONE', ( #334 ), #99, .F. ) ;
#234 = AXIS2_PLACEMENT_3D ( 'NONE', #71, #22, #328 ) ;
#235 = EDGE_CURVE ( 'NONE', #270, #315, #128, .T. ) ;
#236 = EDGE_CURVE ( 'NONE', #263, #270, #283, .T. ) ;
#237 = CIRCLE ( 'NONE', #30, 5.000000000000001776 ) ;
#238 = VERTEX_POINT ( 'NONE', #121 ) ;
#239 = LINE ( 'NONE', #6, #331 ) ;
#240 = VERTEX_POINT ( 'NONE', #102 ) ;
#241 = ORIENTED_EDGE ( 'NONE', *, *, #59, .F. ) ;
#242 = VECTOR ( 'NONE', #278, 1000.000000000000000 ) ;
#243 = APPROVAL_STATUS ( 'not_yet_approved' ) ;
#244 = ORIENTED_EDGE ( 'NONE', *, *, #312, .T. ) ;
#245 = CARTESIAN_POINT ( 'NONE',  ( -1.614212418857619014, 0.000000000000000000, 0.000000000000000000 ) ) ;
#246 = PERSON_AND_ORGANIZATION_ROLE ( 'creator' ) ;
#247 = ORIENTED_EDGE ( 'NONE', *, *, #78, .T. ) ;
#248 = CALENDAR_DATE ( 2020, 23, 12 ) ;
#249 = ORIENTED_EDGE ( 'NONE', *, *, #5, .F. ) ;
#250 = AXIS2_PLACEMENT_3D ( 'NONE', #2, #301, #97 ) ;
#251 = SECURITY_CLASSIFICATION ( '', '', #149 ) ;
#252 = DIRECTION ( 'NONE',  ( -1.000000000000000000, -0.000000000000000000, -0.000000000000000000 ) ) ;
#253 = FACE_OUTER_BOUND ( 'NONE', #192, .T. ) ;
#254 = EDGE_CURVE ( 'NONE', #288, #238, #72, .T. ) ;
#255 = CARTESIAN_POINT ( 'NONE',  ( -3.000000000000000000, 0.000000000000000000, 12.69999999999999929 ) ) ;
#256 = PRODUCT_DEFINITION ( 'UNKNOWN', '', #31, #155 ) ;
#257 = CARTESIAN_POINT ( 'NONE',  ( -3.000000000000000000, 6.123233995736766282E-16, -5.000000000000000000 ) ) ;
#258 = DIRECTION ( 'NONE',  ( -1.000000000000000000, -0.000000000000000000, -0.000000000000000000 ) ) ;
#259 = CIRCLE ( 'NONE', #161, 5.000000000000000888 ) ;
#260 = ORIENTED_EDGE ( 'NONE', *, *, #284, .T. ) ;
#261 = CIRCLE ( 'NONE', #234, 12.69999999999999929 ) ;
#262 = LOCAL_TIME ( 9, 22, 43.00000000000000000, #219 ) ;
#263 = VERTEX_POINT ( 'NONE', #208 ) ;
#264 = EDGE_LOOP ( 'NONE', ( #185, #326 ) ) ;
#265 = ORIENTED_EDGE ( 'NONE', *, *, #236, .T. ) ;
#266 = ADVANCED_FACE ( 'NONE', ( #310 ), #184, .T. ) ;
#267 = CIRCLE ( 'NONE', #282, 12.69999999999999929 ) ;
#268 = APPROVAL_DATE_TIME ( #216, #153 ) ;
#269 = PLANE ( 'NONE',  #8 ) ;
#270 = VERTEX_POINT ( 'NONE', #46 ) ;
#271 = ADVANCED_FACE ( 'NONE', ( #19, #204 ), #178, .F. ) ;
#272 = PERSON_AND_ORGANIZATION_ROLE ( 'design_supplier' ) ;
#273 = ORIENTED_EDGE ( 'NONE', *, *, #287, .F. ) ;
#274 = DATE_TIME_ROLE ( 'classification_date' ) ;
#275 = CARTESIAN_POINT ( 'NONE',  ( -1.614212418857619014, 0.000000000000000000, 0.000000000000000000 ) ) ;
#276 = PRODUCT_DEFINITION_SHAPE ( 'NONE', 'NONE',  #256 ) ;
#277 = DIRECTION ( 'NONE',  ( -1.000000000000000000, -0.000000000000000000, -0.000000000000000000 ) ) ;
#278 = DIRECTION ( 'NONE',  ( -1.000000000000000000, -0.000000000000000000, -0.000000000000000000 ) ) ;
#279 = DIRECTION ( 'NONE',  ( -1.000000000000000000, -0.000000000000000000, -0.000000000000000000 ) ) ;
#280 = CC_DESIGN_PERSON_AND_ORGANIZATION_ASSIGNMENT ( #297, #272, ( #31 ) ) ;
#281 = PLANE ( 'NONE',  #182 ) ;
#282 = AXIS2_PLACEMENT_3D ( 'NONE', #127, #279, #150 ) ;
#283 = LINE ( 'NONE', #50, #103 ) ;
#284 = EDGE_CURVE ( 'NONE', #33, #10, #323, .T. ) ;
#285 = LINE ( 'NONE', #333, #242 ) ;
#286 = ORIENTED_EDGE ( 'NONE', *, *, #115, .T. ) ;
#287 = EDGE_CURVE ( 'NONE', #113, #36, #261, .T. ) ;
#288 = VERTEX_POINT ( 'NONE', #176 ) ;
#289 =( GEOMETRIC_REPRESENTATION_CONTEXT ( 3 ) GLOBAL_UNCERTAINTY_ASSIGNED_CONTEXT ( ( #131 ) ) GLOBAL_UNIT_ASSIGNED_CONTEXT ( ( #303, #125, #129 ) ) REPRESENTATION_CONTEXT ( 'NONE', 'WORKASPACE' ) );
#290 = ORIENTED_EDGE ( 'NONE', *, *, #13, .T. ) ;
#291 = ORIENTED_EDGE ( 'NONE', *, *, #254, .F. ) ;
#292 = PRODUCT_RELATED_PRODUCT_CATEGORY ( 'detail', '', ( #86 ) ) ;
#293 = ORIENTED_EDGE ( 'NONE', *, *, #135, .T. ) ;
#294 = LINE ( 'NONE', #60, #74 ) ;
#295 = DIRECTION ( 'NONE',  ( -1.000000000000000000, -0.000000000000000000, -0.000000000000000000 ) ) ;
#296 = AXIS2_PLACEMENT_3D ( 'NONE', #18, #23, #202 ) ;
#297 = PERSON_AND_ORGANIZATION ( #199, #119 ) ;
#298 = CARTESIAN_POINT ( 'NONE',  ( -1.250000000000000222, 0.000000000000000000, 0.000000000000000000 ) ) ;
#299 = DIRECTION ( 'NONE',  ( 0.000000000000000000, 0.000000000000000000, -1.000000000000000000 ) ) ;
#300 = CC_DESIGN_PERSON_AND_ORGANIZATION_ASSIGNMENT ( #146, #82, ( #251 ) ) ;
#301 = DIRECTION ( 'NONE',  ( -1.000000000000000000, -0.000000000000000000, -0.000000000000000000 ) ) ;
#302 = AXIS2_PLACEMENT_3D ( 'NONE', #322, #316, #120 ) ;
#303 =( LENGTH_UNIT ( ) NAMED_UNIT ( * ) SI_UNIT ( .MILLI., .METRE. ) );
#304 = LINE ( 'NONE', #148, #183 ) ;
#305 = APPLICATION_PROTOCOL_DEFINITION ( 'international standard', 'config_control_design', 1994, #329 ) ;
#306 = DIRECTION ( 'NONE',  ( -1.000000000000000000, -0.000000000000000000, -0.000000000000000000 ) ) ;
#307 = AXIS2_PLACEMENT_3D ( 'NONE', #81, #67, #214 ) ;
#308 = DIRECTION ( 'NONE',  ( 1.000000000000000000, 0.000000000000000000, 0.000000000000000000 ) ) ;
#309 = LOCAL_TIME ( 9, 22, 43.00000000000000000, #118 ) ;
#310 = FACE_OUTER_BOUND ( 'NONE', #58, .T. ) ;
#311 = ADVANCED_FACE ( 'NONE', ( #157 ), #281, .F. ) ;
#312 = EDGE_CURVE ( 'NONE', #33, #113, #285, .T. ) ;
#313 = ORIENTED_EDGE ( 'NONE', *, *, #115, .F. ) ;
#314 = CC_DESIGN_APPROVAL ( #332, ( #251 ) ) ;
#315 = VERTEX_POINT ( 'NONE', #257 ) ;
#316 = DIRECTION ( 'NONE',  ( 1.000000000000000000, 0.000000000000000000, 0.000000000000000000 ) ) ;
#317 = CC_DESIGN_PERSON_AND_ORGANIZATION_ASSIGNMENT ( #231, #1, ( #86 ) ) ;
#318 = DATE_AND_TIME ( #200, #209 ) ;
#319 = ORIENTED_EDGE ( 'NONE', *, *, #235, .T. ) ;
#320 = EDGE_LOOP ( 'NONE', ( #225, #247, #109, #210 ) ) ;
#321 = CALENDAR_DATE ( 2020, 23, 12 ) ;
#322 = CARTESIAN_POINT ( 'NONE',  ( -1.250000000000000222, 0.000000000000000000, 0.000000000000000000 ) ) ;
#323 = CIRCLE ( 'NONE', #4, 12.69999999999999929 ) ;
#324 = CIRCLE ( 'NONE', #53, 12.69999999999999929 ) ;
#325 = APPROVAL_DATE_TIME ( #38, #332 ) ;
#326 = ORIENTED_EDGE ( 'NONE', *, *, #100, .T. ) ;
#327 = DIRECTION ( 'NONE',  ( 0.000000000000000000, 0.000000000000000000, 1.000000000000000000 ) ) ;
#328 = DIRECTION ( 'NONE',  ( 0.000000000000000000, 0.000000000000000000, 1.000000000000000000 ) ) ;
#329 = APPLICATION_CONTEXT ( 'configuration controlled 3d designs of mechanical parts and assemblies' ) ;
#330 = DIRECTION ( 'NONE',  ( -1.000000000000000000, -0.000000000000000000, -0.000000000000000000 ) ) ;
#331 = VECTOR ( 'NONE', #34, 1000.000000000000000 ) ;
#332 = APPROVAL ( #166, 'UNSPECIFIED' ) ;
#333 = CARTESIAN_POINT ( 'NONE',  ( -1.614212418857619014, 0.000000000000000000, 12.69999999999999929 ) ) ;
#334 = FACE_OUTER_BOUND ( 'NONE', #7, .T. ) ;
#335 = DIRECTION ( 'NONE',  ( 0.000000000000000000, 0.000000000000000000, 1.000000000000000000 ) ) ;
ENDSEC;
END-ISO-10303-21;
